ISO-10303-21;
HEADER;
FILE_DESCRIPTION(('CATIA V5 STEP Exchange'),'2;1');

FILE_NAME('\\\\stisrv.epfl.ch\\sti-sgm\\sgm-ens\\soubiell\\Enseignement\\ME-101-106 - Construction M\X2\00E9\X0\canique I\\1. Supports de cours\\SW2\\Fichiers sources et illustrations\\PIECE D.stp','2023-10-16T12:17:46+00:00',('none'),('none'),'CATIA Unofficial Packaging Version SP3','CATIA V5 STEP AP203','none');

FILE_SCHEMA(('CONFIG_CONTROL_DESIGN'));

ENDSEC;
DATA;
#5=PRODUCT('PIECE D','','',(#2)) ;
#1=APPLICATION_CONTEXT('configuration controlled 3D design of mechanical parts and assemblies') ;
#14=PRODUCT_DEFINITION('',' ',#6,#3) ;
#16=SECURITY_CLASSIFICATION(' ',' ',#15) ;
#15=SECURITY_CLASSIFICATION_LEVEL('unclassified') ;
#46=CARTESIAN_POINT(' ',(0.,0.,0.)) ;
#51=CARTESIAN_POINT('Axis2P3D Location',(250.,350.,300.)) ;
#56=CARTESIAN_POINT('Line Origine',(275.,300.,0.)) ;
#60=CARTESIAN_POINT('Vertex',(250.,350.,0.)) ;
#62=CARTESIAN_POINT('Vertex',(300.,250.,0.)) ;
#65=CARTESIAN_POINT('Line Origine',(300.,250.,150.)) ;
#69=CARTESIAN_POINT('Vertex',(300.,250.,300.)) ;
#72=CARTESIAN_POINT('Line Origine',(275.,300.,300.)) ;
#76=CARTESIAN_POINT('Vertex',(250.,350.,300.)) ;
#79=CARTESIAN_POINT('Line Origine',(250.,350.,150.)) ;
#91=CARTESIAN_POINT('Axis2P3D Location',(350.,350.,0.)) ;
#96=CARTESIAN_POINT('Line Origine',(300.,350.,300.)) ;
#100=CARTESIAN_POINT('Vertex',(350.,350.,300.)) ;
#103=CARTESIAN_POINT('Line Origine',(350.,350.,150.)) ;
#107=CARTESIAN_POINT('Vertex',(350.,350.,0.)) ;
#110=CARTESIAN_POINT('Line Origine',(300.,350.,0.)) ;
#122=CARTESIAN_POINT('Axis2P3D Location',(0.,150.,300.)) ;
#127=CARTESIAN_POINT('Line Origine',(175.,250.,300.)) ;
#131=CARTESIAN_POINT('Vertex',(50.,250.,300.)) ;
#134=CARTESIAN_POINT('Line Origine',(75.,300.,300.)) ;
#138=CARTESIAN_POINT('Vertex',(100.,350.,300.)) ;
#141=CARTESIAN_POINT('Line Origine',(50.,350.,300.)) ;
#145=CARTESIAN_POINT('Vertex',(0.,350.,300.)) ;
#148=CARTESIAN_POINT('Line Origine',(0.,250.,300.)) ;
#152=CARTESIAN_POINT('Vertex',(0.,150.,300.)) ;
#155=CARTESIAN_POINT('Line Origine',(175.,150.,300.)) ;
#159=CARTESIAN_POINT('Vertex',(350.,150.,300.)) ;
#162=CARTESIAN_POINT('Line Origine',(350.,250.,300.)) ;
#178=CARTESIAN_POINT('Axis2P3D Location',(0.,0.,0.)) ;
#183=CARTESIAN_POINT('Line Origine',(75.,300.,0.)) ;
#187=CARTESIAN_POINT('Vertex',(100.,350.,0.)) ;
#189=CARTESIAN_POINT('Vertex',(50.,250.,0.)) ;
#192=CARTESIAN_POINT('Line Origine',(175.,250.,0.)) ;
#197=CARTESIAN_POINT('Line Origine',(350.,175.,0.)) ;
#201=CARTESIAN_POINT('Vertex',(350.,0.,0.)) ;
#204=CARTESIAN_POINT('Line Origine',(175.,0.,0.)) ;
#208=CARTESIAN_POINT('Vertex',(0.,0.,0.)) ;
#211=CARTESIAN_POINT('Line Origine',(0.,175.,0.)) ;
#215=CARTESIAN_POINT('Vertex',(0.,350.,0.)) ;
#218=CARTESIAN_POINT('Line Origine',(50.,350.,0.)) ;
#234=CARTESIAN_POINT('Axis2P3D Location',(0.,150.,300.)) ;
#239=CARTESIAN_POINT('Line Origine',(0.,150.,350.)) ;
#243=CARTESIAN_POINT('Vertex',(0.,150.,400.)) ;
#246=CARTESIAN_POINT('Line Origine',(175.,150.,400.)) ;
#250=CARTESIAN_POINT('Vertex',(350.,150.,400.)) ;
#253=CARTESIAN_POINT('Line Origine',(350.,150.,350.)) ;
#265=CARTESIAN_POINT('Axis2P3D Location',(0.,350.,0.)) ;
#270=CARTESIAN_POINT('Line Origine',(0.,350.,150.)) ;
#275=CARTESIAN_POINT('Line Origine',(0.,0.,200.)) ;
#279=CARTESIAN_POINT('Vertex',(0.,0.,400.)) ;
#282=CARTESIAN_POINT('Line Origine',(0.,75.,400.)) ;
#296=CARTESIAN_POINT('Axis2P3D Location',(0.,0.,400.)) ;
#301=CARTESIAN_POINT('Line Origine',(175.,0.,400.)) ;
#305=CARTESIAN_POINT('Vertex',(350.,0.,400.)) ;
#308=CARTESIAN_POINT('Line Origine',(350.,75.,400.)) ;
#320=CARTESIAN_POINT('Axis2P3D Location',(0.,0.,0.)) ;
#325=CARTESIAN_POINT('Line Origine',(350.,0.,200.)) ;
#337=CARTESIAN_POINT('Axis2P3D Location',(50.,250.,300.)) ;
#342=CARTESIAN_POINT('Line Origine',(100.,350.,150.)) ;
#347=CARTESIAN_POINT('Line Origine',(50.,250.,150.)) ;
#366=CARTESIAN_POINT('Axis2P3D Location',(350.,0.,0.)) ;
#380=CARTESIAN_POINT('Axis2P3D Location',(300.,250.,300.)) ;
#52=DIRECTION('Axis2P3D Direction',(0.894427191,0.4472135955,0.)) ;
#53=DIRECTION('Axis2P3D XDirection',(0.4472135955,-0.894427191,0.)) ;
#57=DIRECTION('Vector Direction',(0.4472135955,-0.894427191,0.)) ;
#66=DIRECTION('Vector Direction',(0.,0.,-1.)) ;
#73=DIRECTION('Vector Direction',(0.4472135955,-0.894427191,0.)) ;
#80=DIRECTION('Vector Direction',(0.,0.,-1.)) ;
#92=DIRECTION('Axis2P3D Direction',(0.,1.,-0.)) ;
#93=DIRECTION('Axis2P3D XDirection',(-1.,0.,0.)) ;
#97=DIRECTION('Vector Direction',(1.,0.,0.)) ;
#104=DIRECTION('Vector Direction',(0.,0.,1.)) ;
#111=DIRECTION('Vector Direction',(-1.,0.,0.)) ;
#123=DIRECTION('Axis2P3D Direction',(0.,0.,-1.)) ;
#124=DIRECTION('Axis2P3D XDirection',(0.,1.,0.)) ;
#128=DIRECTION('Vector Direction',(-1.,0.,0.)) ;
#135=DIRECTION('Vector Direction',(0.4472135955,0.894427191,0.)) ;
#142=DIRECTION('Vector Direction',(1.,0.,0.)) ;
#149=DIRECTION('Vector Direction',(0.,1.,0.)) ;
#156=DIRECTION('Vector Direction',(1.,0.,0.)) ;
#163=DIRECTION('Vector Direction',(0.,-1.,0.)) ;
#179=DIRECTION('Axis2P3D Direction',(0.,0.,1.)) ;
#180=DIRECTION('Axis2P3D XDirection',(1.,0.,0.)) ;
#184=DIRECTION('Vector Direction',(-0.4472135955,-0.894427191,0.)) ;
#193=DIRECTION('Vector Direction',(-1.,0.,0.)) ;
#198=DIRECTION('Vector Direction',(0.,1.,0.)) ;
#205=DIRECTION('Vector Direction',(1.,0.,0.)) ;
#212=DIRECTION('Vector Direction',(0.,-1.,0.)) ;
#219=DIRECTION('Vector Direction',(-1.,0.,0.)) ;
#235=DIRECTION('Axis2P3D Direction',(0.,1.,0.)) ;
#236=DIRECTION('Axis2P3D XDirection',(0.,0.,1.)) ;
#240=DIRECTION('Vector Direction',(0.,0.,1.)) ;
#247=DIRECTION('Vector Direction',(1.,0.,0.)) ;
#254=DIRECTION('Vector Direction',(0.,0.,-1.)) ;
#266=DIRECTION('Axis2P3D Direction',(-1.,0.,0.)) ;
#267=DIRECTION('Axis2P3D XDirection',(0.,-1.,0.)) ;
#271=DIRECTION('Vector Direction',(0.,0.,1.)) ;
#276=DIRECTION('Vector Direction',(0.,0.,1.)) ;
#283=DIRECTION('Vector Direction',(0.,-1.,0.)) ;
#297=DIRECTION('Axis2P3D Direction',(0.,0.,1.)) ;
#298=DIRECTION('Axis2P3D XDirection',(1.,0.,0.)) ;
#302=DIRECTION('Vector Direction',(1.,0.,0.)) ;
#309=DIRECTION('Vector Direction',(0.,1.,0.)) ;
#321=DIRECTION('Axis2P3D Direction',(0.,-1.,0.)) ;
#322=DIRECTION('Axis2P3D XDirection',(1.,0.,0.)) ;
#326=DIRECTION('Vector Direction',(0.,0.,1.)) ;
#338=DIRECTION('Axis2P3D Direction',(-0.894427191,0.4472135955,0.)) ;
#339=DIRECTION('Axis2P3D XDirection',(0.4472135955,0.894427191,0.)) ;
#343=DIRECTION('Vector Direction',(0.,0.,-1.)) ;
#348=DIRECTION('Vector Direction',(0.,0.,-1.)) ;
#367=DIRECTION('Axis2P3D Direction',(1.,0.,0.)) ;
#368=DIRECTION('Axis2P3D XDirection',(0.,1.,0.)) ;
#381=DIRECTION('Axis2P3D Direction',(-0.,-1.,-0.)) ;
#382=DIRECTION('Axis2P3D XDirection',(-1.,0.,0.)) ;
#47=AXIS2_PLACEMENT_3D(' ',#46,$,$) ;
#54=AXIS2_PLACEMENT_3D('Plane Axis2P3D',#51,#52,#53) ;
#94=AXIS2_PLACEMENT_3D('Plane Axis2P3D',#91,#92,#93) ;
#125=AXIS2_PLACEMENT_3D('Plane Axis2P3D',#122,#123,#124) ;
#181=AXIS2_PLACEMENT_3D('Plane Axis2P3D',#178,#179,#180) ;
#237=AXIS2_PLACEMENT_3D('Plane Axis2P3D',#234,#235,#236) ;
#268=AXIS2_PLACEMENT_3D('Plane Axis2P3D',#265,#266,#267) ;
#299=AXIS2_PLACEMENT_3D('Plane Axis2P3D',#296,#297,#298) ;
#323=AXIS2_PLACEMENT_3D('Plane Axis2P3D',#320,#321,#322) ;
#340=AXIS2_PLACEMENT_3D('Plane Axis2P3D',#337,#338,#339) ;
#369=AXIS2_PLACEMENT_3D('Plane Axis2P3D',#366,#367,#368) ;
#383=AXIS2_PLACEMENT_3D('Plane Axis2P3D',#380,#381,#382) ;
#40=PRODUCT_DEFINITION_SHAPE(' ',' ',#14) ;
#31=APPROVAL_PERSON_ORGANIZATION(#25,#21,#19) ;
#25=PERSON_AND_ORGANIZATION(#22,#23) ;
#22=PERSON(' ',' ',' ',$,$,$) ;
#23=ORGANIZATION(' ',' ',' ') ;
#21=APPROVAL(#20,' ') ;
#20=APPROVAL_STATUS('not_yet_approved') ;
#19=APPROVAL_ROLE('APPROVER') ;
#13=DATE_AND_TIME(#11,#12) ;
#12=LOCAL_TIME(14,17,46.,#10) ;
#10=COORDINATED_UNIVERSAL_TIME_OFFSET(0,0,.AHEAD.) ;
#85=ORIENTED_EDGE('',*,*,#64,.T.) ;
#86=ORIENTED_EDGE('',*,*,#71,.F.) ;
#87=ORIENTED_EDGE('',*,*,#78,.T.) ;
#88=ORIENTED_EDGE('',*,*,#83,.T.) ;
#116=ORIENTED_EDGE('',*,*,#102,.T.) ;
#117=ORIENTED_EDGE('',*,*,#109,.F.) ;
#118=ORIENTED_EDGE('',*,*,#114,.T.) ;
#119=ORIENTED_EDGE('',*,*,#83,.F.) ;
#168=ORIENTED_EDGE('',*,*,#78,.F.) ;
#169=ORIENTED_EDGE('',*,*,#133,.F.) ;
#170=ORIENTED_EDGE('',*,*,#140,.F.) ;
#171=ORIENTED_EDGE('',*,*,#147,.F.) ;
#172=ORIENTED_EDGE('',*,*,#154,.T.) ;
#173=ORIENTED_EDGE('',*,*,#161,.T.) ;
#174=ORIENTED_EDGE('',*,*,#166,.F.) ;
#175=ORIENTED_EDGE('',*,*,#102,.F.) ;
#224=ORIENTED_EDGE('',*,*,#191,.T.) ;
#225=ORIENTED_EDGE('',*,*,#196,.F.) ;
#226=ORIENTED_EDGE('',*,*,#64,.F.) ;
#227=ORIENTED_EDGE('',*,*,#114,.F.) ;
#228=ORIENTED_EDGE('',*,*,#203,.F.) ;
#229=ORIENTED_EDGE('',*,*,#210,.F.) ;
#230=ORIENTED_EDGE('',*,*,#217,.F.) ;
#231=ORIENTED_EDGE('',*,*,#222,.F.) ;
#259=ORIENTED_EDGE('',*,*,#161,.F.) ;
#260=ORIENTED_EDGE('',*,*,#245,.T.) ;
#261=ORIENTED_EDGE('',*,*,#252,.T.) ;
#262=ORIENTED_EDGE('',*,*,#257,.T.) ;
#288=ORIENTED_EDGE('',*,*,#274,.F.) ;
#289=ORIENTED_EDGE('',*,*,#217,.T.) ;
#290=ORIENTED_EDGE('',*,*,#281,.T.) ;
#291=ORIENTED_EDGE('',*,*,#286,.F.) ;
#292=ORIENTED_EDGE('',*,*,#245,.F.) ;
#293=ORIENTED_EDGE('',*,*,#154,.F.) ;
#314=ORIENTED_EDGE('',*,*,#286,.T.) ;
#315=ORIENTED_EDGE('',*,*,#307,.T.) ;
#316=ORIENTED_EDGE('',*,*,#312,.T.) ;
#317=ORIENTED_EDGE('',*,*,#252,.F.) ;
#331=ORIENTED_EDGE('',*,*,#281,.F.) ;
#332=ORIENTED_EDGE('',*,*,#210,.T.) ;
#333=ORIENTED_EDGE('',*,*,#329,.T.) ;
#334=ORIENTED_EDGE('',*,*,#307,.F.) ;
#353=ORIENTED_EDGE('',*,*,#191,.F.) ;
#354=ORIENTED_EDGE('',*,*,#346,.F.) ;
#355=ORIENTED_EDGE('',*,*,#140,.T.) ;
#356=ORIENTED_EDGE('',*,*,#351,.T.) ;
#360=ORIENTED_EDGE('',*,*,#222,.T.) ;
#361=ORIENTED_EDGE('',*,*,#274,.T.) ;
#362=ORIENTED_EDGE('',*,*,#147,.T.) ;
#363=ORIENTED_EDGE('',*,*,#346,.T.) ;
#372=ORIENTED_EDGE('',*,*,#312,.F.) ;
#373=ORIENTED_EDGE('',*,*,#329,.F.) ;
#374=ORIENTED_EDGE('',*,*,#203,.T.) ;
#375=ORIENTED_EDGE('',*,*,#109,.T.) ;
#376=ORIENTED_EDGE('',*,*,#166,.T.) ;
#377=ORIENTED_EDGE('',*,*,#257,.F.) ;
#386=ORIENTED_EDGE('',*,*,#196,.T.) ;
#387=ORIENTED_EDGE('',*,*,#351,.F.) ;
#388=ORIENTED_EDGE('',*,*,#133,.T.) ;
#389=ORIENTED_EDGE('',*,*,#71,.T.) ;
#50=CLOSED_SHELL('Closed Shell',(#90,#121,#177,#233,#264,#295,#319,#336,#358,#365,#379,#391)) ;
#58=VECTOR('Line Direction',#57,1.) ;
#67=VECTOR('Line Direction',#66,1.) ;
#74=VECTOR('Line Direction',#73,1.) ;
#81=VECTOR('Line Direction',#80,1.) ;
#98=VECTOR('Line Direction',#97,1.) ;
#105=VECTOR('Line Direction',#104,1.) ;
#112=VECTOR('Line Direction',#111,1.) ;
#129=VECTOR('Line Direction',#128,1.) ;
#136=VECTOR('Line Direction',#135,1.) ;
#143=VECTOR('Line Direction',#142,1.) ;
#150=VECTOR('Line Direction',#149,1.) ;
#157=VECTOR('Line Direction',#156,1.) ;
#164=VECTOR('Line Direction',#163,1.) ;
#185=VECTOR('Line Direction',#184,1.) ;
#194=VECTOR('Line Direction',#193,1.) ;
#199=VECTOR('Line Direction',#198,1.) ;
#206=VECTOR('Line Direction',#205,1.) ;
#213=VECTOR('Line Direction',#212,1.) ;
#220=VECTOR('Line Direction',#219,1.) ;
#241=VECTOR('Line Direction',#240,1.) ;
#248=VECTOR('Line Direction',#247,1.) ;
#255=VECTOR('Line Direction',#254,1.) ;
#272=VECTOR('Line Direction',#271,1.) ;
#277=VECTOR('Line Direction',#276,1.) ;
#284=VECTOR('Line Direction',#283,1.) ;
#303=VECTOR('Line Direction',#302,1.) ;
#310=VECTOR('Line Direction',#309,1.) ;
#327=VECTOR('Line Direction',#326,1.) ;
#344=VECTOR('Line Direction',#343,1.) ;
#349=VECTOR('Line Direction',#348,1.) ;
#393=ADVANCED_BREP_SHAPE_REPRESENTATION('NONE',(#392),#45) ;
#48=SHAPE_REPRESENTATION(' ',(#47),#45) ;
#90=ADVANCED_FACE('Corps principal',(#89),#55,.F.) ;
#121=ADVANCED_FACE('Corps principal',(#120),#95,.T.) ;
#177=ADVANCED_FACE('Corps principal',(#176),#126,.F.) ;
#233=ADVANCED_FACE('Corps principal',(#232),#182,.F.) ;
#264=ADVANCED_FACE('Corps principal',(#263),#238,.T.) ;
#295=ADVANCED_FACE('Corps principal',(#294),#269,.T.) ;
#319=ADVANCED_FACE('Corps principal',(#318),#300,.T.) ;
#336=ADVANCED_FACE('Corps principal',(#335),#324,.T.) ;
#358=ADVANCED_FACE('Corps principal',(#357),#341,.F.) ;
#365=ADVANCED_FACE('Corps principal',(#364),#95,.T.) ;
#379=ADVANCED_FACE('Corps principal',(#378),#370,.T.) ;
#391=ADVANCED_FACE('Corps principal',(#390),#384,.F.) ;
#4=APPLICATION_PROTOCOL_DEFINITION('international standard','config_control_design',1994,#1) ;
#32=APPROVAL_DATE_TIME(#13,#21) ;
#392=MANIFOLD_SOLID_BREP('Corps principal',#50) ;
#11=CALENDAR_DATE(2023,16,10) ;
#30=CC_DESIGN_APPROVAL(#21,(#16,#6,#14)) ;
#18=CC_DESIGN_DATE_AND_TIME_ASSIGNMENT(#13,#17,(#16)) ;
#29=CC_DESIGN_DATE_AND_TIME_ASSIGNMENT(#13,#28,(#14)) ;
#17=DATE_TIME_ROLE('classification_date') ;
#28=DATE_TIME_ROLE('creation_date') ;
#27=CC_DESIGN_PERSON_AND_ORGANIZATION_ASSIGNMENT(#25,#26,(#16)) ;
#33=CC_DESIGN_PERSON_AND_ORGANIZATION_ASSIGNMENT(#25,#34,(#6)) ;
#35=CC_DESIGN_PERSON_AND_ORGANIZATION_ASSIGNMENT(#25,#36,(#6,#14)) ;
#37=CC_DESIGN_PERSON_AND_ORGANIZATION_ASSIGNMENT(#25,#38,(#5)) ;
#26=PERSON_AND_ORGANIZATION_ROLE('classification_officer') ;
#34=PERSON_AND_ORGANIZATION_ROLE('design_supplier') ;
#36=PERSON_AND_ORGANIZATION_ROLE('creator') ;
#38=PERSON_AND_ORGANIZATION_ROLE('design_owner') ;
#39=CC_DESIGN_SECURITY_CLASSIFICATION(#16,(#6)) ;
#394=SHAPE_REPRESENTATION_RELATIONSHIP(' ',' ',#48,#393) ;
#3=DESIGN_CONTEXT(' ',#1,'design') ;
#64=EDGE_CURVE('',#61,#63,#59,.T.) ;
#71=EDGE_CURVE('',#70,#63,#68,.T.) ;
#78=EDGE_CURVE('',#70,#77,#75,.F.) ;
#83=EDGE_CURVE('',#77,#61,#82,.T.) ;
#102=EDGE_CURVE('',#77,#101,#99,.T.) ;
#109=EDGE_CURVE('',#108,#101,#106,.T.) ;
#114=EDGE_CURVE('',#108,#61,#113,.T.) ;
#133=EDGE_CURVE('',#132,#70,#130,.F.) ;
#140=EDGE_CURVE('',#139,#132,#137,.F.) ;
#147=EDGE_CURVE('',#146,#139,#144,.T.) ;
#154=EDGE_CURVE('',#146,#153,#151,.F.) ;
#161=EDGE_CURVE('',#153,#160,#158,.T.) ;
#166=EDGE_CURVE('',#101,#160,#165,.T.) ;
#191=EDGE_CURVE('',#188,#190,#186,.T.) ;
#196=EDGE_CURVE('',#63,#190,#195,.T.) ;
#203=EDGE_CURVE('',#202,#108,#200,.T.) ;
#210=EDGE_CURVE('',#209,#202,#207,.T.) ;
#217=EDGE_CURVE('',#216,#209,#214,.T.) ;
#222=EDGE_CURVE('',#188,#216,#221,.T.) ;
#245=EDGE_CURVE('',#153,#244,#242,.T.) ;
#252=EDGE_CURVE('',#244,#251,#249,.T.) ;
#257=EDGE_CURVE('',#251,#160,#256,.T.) ;
#274=EDGE_CURVE('',#216,#146,#273,.T.) ;
#281=EDGE_CURVE('',#209,#280,#278,.T.) ;
#286=EDGE_CURVE('',#244,#280,#285,.T.) ;
#307=EDGE_CURVE('',#280,#306,#304,.T.) ;
#312=EDGE_CURVE('',#306,#251,#311,.T.) ;
#329=EDGE_CURVE('',#202,#306,#328,.T.) ;
#346=EDGE_CURVE('',#139,#188,#345,.T.) ;
#351=EDGE_CURVE('',#132,#190,#350,.T.) ;
#84=EDGE_LOOP('',(#85,#86,#87,#88)) ;
#115=EDGE_LOOP('',(#116,#117,#118,#119)) ;
#167=EDGE_LOOP('',(#168,#169,#170,#171,#172,#173,#174,#175)) ;
#223=EDGE_LOOP('',(#224,#225,#226,#227,#228,#229,#230,#231)) ;
#258=EDGE_LOOP('',(#259,#260,#261,#262)) ;
#287=EDGE_LOOP('',(#288,#289,#290,#291,#292,#293)) ;
#313=EDGE_LOOP('',(#314,#315,#316,#317)) ;
#330=EDGE_LOOP('',(#331,#332,#333,#334)) ;
#352=EDGE_LOOP('',(#353,#354,#355,#356)) ;
#359=EDGE_LOOP('',(#360,#361,#362,#363)) ;
#371=EDGE_LOOP('',(#372,#373,#374,#375,#376,#377)) ;
#385=EDGE_LOOP('',(#386,#387,#388,#389)) ;
#89=FACE_OUTER_BOUND('',#84,.T.) ;
#120=FACE_OUTER_BOUND('',#115,.T.) ;
#176=FACE_OUTER_BOUND('',#167,.T.) ;
#232=FACE_OUTER_BOUND('',#223,.T.) ;
#263=FACE_OUTER_BOUND('',#258,.T.) ;
#294=FACE_OUTER_BOUND('',#287,.T.) ;
#318=FACE_OUTER_BOUND('',#313,.T.) ;
#335=FACE_OUTER_BOUND('',#330,.T.) ;
#357=FACE_OUTER_BOUND('',#352,.T.) ;
#364=FACE_OUTER_BOUND('',#359,.T.) ;
#378=FACE_OUTER_BOUND('',#371,.T.) ;
#390=FACE_OUTER_BOUND('',#385,.T.) ;
#44=UNCERTAINTY_MEASURE_WITH_UNIT(LENGTH_MEASURE(0.005),#41,'distance_accuracy_value','CONFUSED CURVE UNCERTAINTY') ;
#59=LINE('Line',#56,#58) ;
#68=LINE('Line',#65,#67) ;
#75=LINE('Line',#72,#74) ;
#82=LINE('Line',#79,#81) ;
#99=LINE('Line',#96,#98) ;
#106=LINE('Line',#103,#105) ;
#113=LINE('Line',#110,#112) ;
#130=LINE('Line',#127,#129) ;
#137=LINE('Line',#134,#136) ;
#144=LINE('Line',#141,#143) ;
#151=LINE('Line',#148,#150) ;
#158=LINE('Line',#155,#157) ;
#165=LINE('Line',#162,#164) ;
#186=LINE('Line',#183,#185) ;
#195=LINE('Line',#192,#194) ;
#200=LINE('Line',#197,#199) ;
#207=LINE('Line',#204,#206) ;
#214=LINE('Line',#211,#213) ;
#221=LINE('Line',#218,#220) ;
#242=LINE('Line',#239,#241) ;
#249=LINE('Line',#246,#248) ;
#256=LINE('Line',#253,#255) ;
#273=LINE('Line',#270,#272) ;
#278=LINE('Line',#275,#277) ;
#285=LINE('Line',#282,#284) ;
#304=LINE('Line',#301,#303) ;
#311=LINE('Line',#308,#310) ;
#328=LINE('Line',#325,#327) ;
#345=LINE('Line',#342,#344) ;
#350=LINE('Line',#347,#349) ;
#2=MECHANICAL_CONTEXT(' ',#1,'mechanical') ;
#24=PERSONAL_ADDRESS(' ',' ',' ',' ',' ',' ',' ',' ',' ',' ',' ',' ',(#22),' ') ;
#55=PLANE('',#54) ;
#95=PLANE('',#94) ;
#126=PLANE('',#125) ;
#182=PLANE('',#181) ;
#238=PLANE('',#237) ;
#269=PLANE('',#268) ;
#300=PLANE('',#299) ;
#324=PLANE('',#323) ;
#341=PLANE('',#340) ;
#370=PLANE('',#369) ;
#384=PLANE('',#383) ;
#7=PRODUCT_CATEGORY('part',$) ;
#9=PRODUCT_CATEGORY_RELATIONSHIP(' ',' ',#7,#8) ;
#6=PRODUCT_DEFINITION_FORMATION_WITH_SPECIFIED_SOURCE('',' ',#5,.NOT_KNOWN.) ;
#8=PRODUCT_RELATED_PRODUCT_CATEGORY('detail',$,(#5)) ;
#49=SHAPE_DEFINITION_REPRESENTATION(#40,#48) ;
#61=VERTEX_POINT('',#60) ;
#63=VERTEX_POINT('',#62) ;
#70=VERTEX_POINT('',#69) ;
#77=VERTEX_POINT('',#76) ;
#101=VERTEX_POINT('',#100) ;
#108=VERTEX_POINT('',#107) ;
#132=VERTEX_POINT('',#131) ;
#139=VERTEX_POINT('',#138) ;
#146=VERTEX_POINT('',#145) ;
#153=VERTEX_POINT('',#152) ;
#160=VERTEX_POINT('',#159) ;
#188=VERTEX_POINT('',#187) ;
#190=VERTEX_POINT('',#189) ;
#202=VERTEX_POINT('',#201) ;
#209=VERTEX_POINT('',#208) ;
#216=VERTEX_POINT('',#215) ;
#244=VERTEX_POINT('',#243) ;
#251=VERTEX_POINT('',#250) ;
#280=VERTEX_POINT('',#279) ;
#306=VERTEX_POINT('',#305) ;
#41=(LENGTH_UNIT()NAMED_UNIT(*)SI_UNIT(.MILLI.,.METRE.)) ;
#42=(NAMED_UNIT(*)PLANE_ANGLE_UNIT()SI_UNIT($,.RADIAN.)) ;
#43=(NAMED_UNIT(*)SI_UNIT($,.STERADIAN.)SOLID_ANGLE_UNIT()) ;
#45=(GEOMETRIC_REPRESENTATION_CONTEXT(3)GLOBAL_UNCERTAINTY_ASSIGNED_CONTEXT((#44))GLOBAL_UNIT_ASSIGNED_CONTEXT((#41,#42,#43))REPRESENTATION_CONTEXT(' ',' ')) ;
ENDSEC;
END-ISO-10303-21;
